ISO-10303-21;
HEADER;
FILE_DESCRIPTION (( 'STEP AP203' ),
    '1' );
FILE_NAME ('Q-QZWP-R4-25.4-266-M.STEP',
    '2020-12-23T01:27:26',
    ( '' ),
    ( '' ),
    'SwSTEP 2.0',
    'SolidWorks 2020',
    '' );
FILE_SCHEMA (( 'CONFIG_CONTROL_DESIGN' ));
ENDSEC;

DATA;
#1 = CC_DESIGN_PERSON_AND_ORGANIZATION_ASSIGNMENT ( #92, #90, ( #60 ) ) ;
#2 = PERSON_AND_ORGANIZATION ( #67, #69 ) ;
#3 = APPROVAL_STATUS ( 'not_yet_approved' ) ;
#4 = APPROVAL_PERSON_ORGANIZATION ( #2, #50, #162 ) ;
#5 = PERSON_AND_ORGANIZATION ( #67, #69 ) ;
#6 = PERSON_AND_ORGANIZATION_ROLE ( 'creator' ) ;
#7 = CC_DESIGN_PERSON_AND_ORGANIZATION_ASSIGNMENT ( #5, #6, ( #118 ) ) ;
#8 = CARTESIAN_POINT ( 'NONE',  ( -1.614212418857619014, 0.000000000000000000, 15.00000000000000000 ) ) ;
#9 = CC_DESIGN_DATE_AND_TIME_ASSIGNMENT ( #13, #61, ( #25 ) ) ;
#10 = PERSON_AND_ORGANIZATION ( #67, #69 ) ;
#11 = CARTESIAN_POINT ( 'NONE',  ( -1.614212418857619014, 0.000000000000000000, 0.000000000000000000 ) ) ;
#12 = PERSON_AND_ORGANIZATION ( #67, #69 ) ;
#13 = DATE_AND_TIME ( #34, #27 ) ;
#14 = VECTOR ( 'NONE', #157, 1000.000000000000000 ) ;
#15 = CARTESIAN_POINT ( 'NONE',  ( -3.000000000000000888, 12.69999999999999929, 0.000000000000000000 ) ) ;
#16 = CC_DESIGN_PERSON_AND_ORGANIZATION_ASSIGNMENT ( #108, #20, ( #60 ) ) ;
#17 = LINE ( 'NONE', #56, #14 ) ;
#18 = DIRECTION ( 'NONE',  ( 0.000000000000000000, 0.000000000000000000, 1.000000000000000000 ) ) ;
#19 = ORIENTED_EDGE ( 'NONE', *, *, #123, .T. ) ;
#20 = PERSON_AND_ORGANIZATION_ROLE ( 'creator' ) ;
#21 = CC_DESIGN_APPROVAL ( #52, ( #118 ) ) ;
#22 = CALENDAR_DATE ( 2020, 23, 12 ) ;
#23 = APPROVAL_STATUS ( 'not_yet_approved' ) ;
#24 = AXIS2_PLACEMENT_3D ( 'NONE', #117, #32, #129 ) ;
#25 = SECURITY_CLASSIFICATION ( '', '', #125 ) ;
#26 = AXIS2_PLACEMENT_3D ( 'NONE', #147, #110, #91 ) ;
#27 = LOCAL_TIME ( 9, 27, 26.00000000000000000, #111 ) ;
#28 = VERTEX_POINT ( 'NONE', #146 ) ;
#29 = DIRECTION ( 'NONE',  ( 0.000000000000000000, 0.000000000000000000, 1.000000000000000000 ) ) ;
#30 = CIRCLE ( 'NONE', #119, 15.00000000000000000 ) ;
#31 = PERSON_AND_ORGANIZATION_ROLE ( 'design_owner' ) ;
#32 = DIRECTION ( 'NONE',  ( -1.000000000000000000, 0.000000000000000000, -0.000000000000000000 ) ) ;
#33 = PRODUCT ( 'Q-QZWP-R4-25.4-266-M', 'Q-QZWP-R4-25.4-266-M', '', ( #158 ) ) ;
#34 = CALENDAR_DATE ( 2020, 23, 12 ) ;
#35 = DIRECTION ( 'NONE',  ( -1.000000000000000000, -0.000000000000000000, -0.000000000000000000 ) ) ;
#36 = LOCAL_TIME ( 9, 27, 26.00000000000000000, #80 ) ;
#37 = CC_DESIGN_APPROVAL ( #50, ( #60 ) ) ;
#38 = EDGE_CURVE ( 'NONE', #28, #107, #30, .T. ) ;
#39 = CIRCLE ( 'NONE', #171, 15.00000000000000000 ) ;
#40 = CARTESIAN_POINT ( 'NONE',  ( 0.000000000000000000, 0.000000000000000000, 0.000000000000000000 ) ) ;
#41 = DIRECTION ( 'NONE',  ( 0.000000000000000000, 0.000000000000000000, 1.000000000000000000 ) ) ;
#42 = CYLINDRICAL_SURFACE ( 'NONE', #149, 15.00000000000000000 ) ;
#43 = PLANE ( 'NONE',  #138 ) ;
#44 = ORIENTED_EDGE ( 'NONE', *, *, #68, .T. ) ;
#45 = DATE_AND_TIME ( #22, #100 ) ;
#46 = AXIS2_PLACEMENT_3D ( 'NONE', #72, #102, #29 ) ;
#47 = PERSON_AND_ORGANIZATION ( #67, #69 ) ;
#48 = DIRECTION ( 'NONE',  ( 0.000000000000000000, 0.000000000000000000, 1.000000000000000000 ) ) ;
#49 = APPROVAL_DATE_TIME ( #124, #93 ) ;
#50 = APPROVAL ( #23, 'UNSPECIFIED' ) ;
#51 = DATE_AND_TIME ( #63, #36 ) ;
#52 = APPROVAL ( #57, 'UNSPECIFIED' ) ;
#53 = LOCAL_TIME ( 9, 27, 26.00000000000000000, #112 ) ;
#54 = EDGE_LOOP ( 'NONE', ( #132, #59 ) ) ;
#55 = APPLICATION_PROTOCOL_DEFINITION ( 'international standard', 'config_control_design', 1994, #96 ) ;
#56 = CARTESIAN_POINT ( 'NONE',  ( -1.614212418857619014, 1.836970198721029589E-15, -15.00000000000000000 ) ) ;
#57 = APPROVAL_STATUS ( 'not_yet_approved' ) ;
#58 = ORIENTED_EDGE ( 'NONE', *, *, #94, .T. ) ;
#59 = ORIENTED_EDGE ( 'NONE', *, *, #38, .T. ) ;
#60 = PRODUCT_DEFINITION_FORMATION_WITH_SPECIFIED_SOURCE ( 'ANY', '', #33, .NOT_KNOWN. ) ;
#61 = DATE_TIME_ROLE ( 'classification_date' ) ;
#62 = COORDINATED_UNIVERSAL_TIME_OFFSET ( 8, 0, .AHEAD. ) ;
#63 = CALENDAR_DATE ( 2020, 23, 12 ) ;
#64 = EDGE_CURVE ( 'NONE', #107, #28, #99, .T. ) ;
#65 = APPLICATION_CONTEXT ( 'configuration controlled 3d designs of mechanical parts and assemblies' ) ;
#66 = VECTOR ( 'NONE', #175, 1000.000000000000000 ) ;
#67 = PERSON ( 'UNSPECIFIED', 'UNSPECIFIED', 'UNSPECIFIED', ('UNSPECIFIED'), ('UNSPECIFIED'), ('UNSPECIFIED') ) ;
#68 = EDGE_CURVE ( 'NONE', #76, #85, #39, .T. ) ;
#69 = ORGANIZATION ( 'UNSPECIFIED', 'UNSPECIFIED', '' ) ;
#70 = DIRECTION ( 'NONE',  ( 1.000000000000000000, 0.000000000000000000, 0.000000000000000000 ) ) ;
#71 = DIRECTION ( 'NONE',  ( 0.000000000000000000, 0.000000000000000000, 1.000000000000000000 ) ) ;
#72 = CARTESIAN_POINT ( 'NONE',  ( 3.000000000000000000, 0.000000000000000000, 0.000000000000000000 ) ) ;
#73 = ORIENTED_EDGE ( 'NONE', *, *, #170, .T. ) ;
#74 = ADVANCED_FACE ( 'NONE', ( #172 ), #89, .F. ) ;
#75 = FACE_OUTER_BOUND ( 'NONE', #121, .T. ) ;
#76 = VERTEX_POINT ( 'NONE', #160 ) ;
#77 = PERSON_AND_ORGANIZATION_ROLE ( 'classification_officer' ) ;
#78 = ADVANCED_FACE ( 'NONE', ( #75 ), #42, .T. ) ;
#79 = DATE_TIME_ROLE ( 'creation_date' ) ;
#80 = COORDINATED_UNIVERSAL_TIME_OFFSET ( 8, 0, .AHEAD. ) ;
#81 = CIRCLE ( 'NONE', #46, 15.00000000000000000 ) ;
#82 = MANIFOLD_SOLID_BREP ( 'Ðý×', #168 ) ;
#83 = CC_DESIGN_DATE_AND_TIME_ASSIGNMENT ( #51, #79, ( #118 ) ) ;
#84 = ORIENTED_EDGE ( 'NONE', *, *, #94, .F. ) ;
#85 = VERTEX_POINT ( 'NONE', #174 ) ;
#86 = AXIS2_PLACEMENT_3D ( 'NONE', #159, #127, #105 ) ;
#87 = FACE_OUTER_BOUND ( 'NONE', #130, .T. ) ;
#88 = FACE_OUTER_BOUND ( 'NONE', #54, .T. ) ;
#89 = PLANE ( 'NONE',  #24 ) ;
#90 = PERSON_AND_ORGANIZATION_ROLE ( 'design_supplier' ) ;
#91 = DIRECTION ( 'NONE',  ( 0.000000000000000000, 0.000000000000000000, 1.000000000000000000 ) ) ;
#92 = PERSON_AND_ORGANIZATION ( #67, #69 ) ;
#93 = APPROVAL ( #3, 'UNSPECIFIED' ) ;
#94 = EDGE_CURVE ( 'NONE', #76, #28, #17, .T. ) ;
#95 = SHAPE_DEFINITION_REPRESENTATION ( #166, #169 ) ;
#96 = APPLICATION_CONTEXT ( 'configuration controlled 3d designs of mechanical parts and assemblies' ) ;
#97 = PRODUCT_RELATED_PRODUCT_CATEGORY ( 'detail', '', ( #33 ) ) ;
#98 = ADVANCED_FACE ( 'NONE', ( #87 ), #142, .T. ) ;
#99 = CIRCLE ( 'NONE', #26, 15.00000000000000000 ) ;
#100 = LOCAL_TIME ( 9, 27, 26.00000000000000000, #62 ) ;
#101 = ORIENTED_EDGE ( 'NONE', *, *, #170, .F. ) ;
#102 = DIRECTION ( 'NONE',  ( -1.000000000000000000, -0.000000000000000000, -0.000000000000000000 ) ) ;
#103 = ORIENTED_EDGE ( 'NONE', *, *, #123, .F. ) ;
#104 = DIRECTION ( 'NONE',  ( 1.000000000000000000, 0.000000000000000000, 0.000000000000000000 ) ) ;
#105 = DIRECTION ( 'NONE',  ( 0.000000000000000000, 0.000000000000000000, 1.000000000000000000 ) ) ;
#106 = PERSON_AND_ORGANIZATION ( #67, #69 ) ;
#107 = VERTEX_POINT ( 'NONE', #120 ) ;
#108 = PERSON_AND_ORGANIZATION ( #67, #69 ) ;
#109 = CARTESIAN_POINT ( 'NONE',  ( -3.000000000000000000, 0.000000000000000000, 0.000000000000000000 ) ) ;
#110 = DIRECTION ( 'NONE',  ( -1.000000000000000000, -0.000000000000000000, -0.000000000000000000 ) ) ;
#111 = COORDINATED_UNIVERSAL_TIME_OFFSET ( 8, 0, .AHEAD. ) ;
#112 = COORDINATED_UNIVERSAL_TIME_OFFSET ( 8, 0, .AHEAD. ) ;
#113 = UNCERTAINTY_MEASURE_WITH_UNIT (LENGTH_MEASURE( 1.000000000000000082E-05 ), #122, 'distance_accuracy_value', 'NONE');
#114 = ORIENTED_EDGE ( 'NONE', *, *, #68, .F. ) ;
#115 = APPROVAL_PERSON_ORGANIZATION ( #12, #93, #167 ) ;
#116 = ADVANCED_FACE ( 'NONE', ( #88 ), #43, .F. ) ;
#117 = CARTESIAN_POINT ( 'NONE',  ( 3.000000000000000888, 12.69999999999999929, 0.000000000000000000 ) ) ;
#118 = PRODUCT_DEFINITION ( 'UNKNOWN', '', #60, #150 ) ;
#119 = AXIS2_PLACEMENT_3D ( 'NONE', #109, #163, #48 ) ;
#120 = CARTESIAN_POINT ( 'NONE',  ( -3.000000000000000000, 0.000000000000000000, 15.00000000000000000 ) ) ;
#121 = EDGE_LOOP ( 'NONE', ( #19, #58, #161, #101 ) ) ;
#122 =( LENGTH_UNIT ( ) NAMED_UNIT ( * ) SI_UNIT ( .MILLI., .METRE. ) );
#123 = EDGE_CURVE ( 'NONE', #85, #76, #81, .T. ) ;
#124 = DATE_AND_TIME ( #164, #141 ) ;
#125 = SECURITY_CLASSIFICATION_LEVEL ( 'unclassified' ) ;
#126 = COORDINATED_UNIVERSAL_TIME_OFFSET ( 8, 0, .AHEAD. ) ;
#127 = DIRECTION ( 'NONE',  ( -1.000000000000000000, -0.000000000000000000, -0.000000000000000000 ) ) ;
#128 = DIRECTION ( 'NONE',  ( 0.000000000000000000, 0.000000000000000000, -1.000000000000000000 ) ) ;
#129 = DIRECTION ( 'NONE',  ( -0.000000000000000000, 0.000000000000000000, 1.000000000000000000 ) ) ;
#130 = EDGE_LOOP ( 'NONE', ( #84, #44, #73, #140 ) ) ;
#131 = DIRECTION ( 'NONE',  ( -1.000000000000000000, -0.000000000000000000, -0.000000000000000000 ) ) ;
#132 = ORIENTED_EDGE ( 'NONE', *, *, #64, .T. ) ;
#133 = APPROVAL_DATE_TIME ( #148, #52 ) ;
#134 = APPROVAL_PERSON_ORGANIZATION ( #10, #52, #137 ) ;
#135 = APPROVAL_DATE_TIME ( #45, #50 ) ;
#136 = CC_DESIGN_PERSON_AND_ORGANIZATION_ASSIGNMENT ( #47, #77, ( #25 ) ) ;
#137 = APPROVAL_ROLE ( '' ) ;
#138 = AXIS2_PLACEMENT_3D ( 'NONE', #15, #104, #128 ) ;
#139 = CC_DESIGN_APPROVAL ( #93, ( #25 ) ) ;
#140 = ORIENTED_EDGE ( 'NONE', *, *, #38, .F. ) ;
#141 = LOCAL_TIME ( 9, 27, 26.00000000000000000, #126 ) ;
#142 = CYLINDRICAL_SURFACE ( 'NONE', #86, 15.00000000000000000 ) ;
#143 =( NAMED_UNIT ( * ) SI_UNIT ( $, .STERADIAN. ) SOLID_ANGLE_UNIT ( ) );
#144 = APPLICATION_PROTOCOL_DEFINITION ( 'international standard', 'config_control_design', 1994, #65 ) ;
#145 = LINE ( 'NONE', #8, #66 ) ;
#146 = CARTESIAN_POINT ( 'NONE',  ( -3.000000000000000000, 1.836970198721029589E-15, -15.00000000000000000 ) ) ;
#147 = CARTESIAN_POINT ( 'NONE',  ( -3.000000000000000000, 0.000000000000000000, 0.000000000000000000 ) ) ;
#148 = DATE_AND_TIME ( #151, #53 ) ;
#149 = AXIS2_PLACEMENT_3D ( 'NONE', #11, #131, #41 ) ;
#150 = DESIGN_CONTEXT ( 'detailed design', #65, 'design' ) ;
#151 = CALENDAR_DATE ( 2020, 23, 12 ) ;
#152 = AXIS2_PLACEMENT_3D ( 'NONE', #40, #71, #70 ) ;
#153 = CC_DESIGN_PERSON_AND_ORGANIZATION_ASSIGNMENT ( #106, #31, ( #33 ) ) ;
#154 = CC_DESIGN_SECURITY_CLASSIFICATION ( #25, ( #60 ) ) ;
#155 = EDGE_LOOP ( 'NONE', ( #103, #114 ) ) ;
#156 =( NAMED_UNIT ( * ) PLANE_ANGLE_UNIT ( ) SI_UNIT ( $, .RADIAN. ) );
#157 = DIRECTION ( 'NONE',  ( -1.000000000000000000, -0.000000000000000000, -0.000000000000000000 ) ) ;
#158 = MECHANICAL_CONTEXT ( 'NONE', #96, 'mechanical' ) ;
#159 = CARTESIAN_POINT ( 'NONE',  ( -1.614212418857619014, 0.000000000000000000, 0.000000000000000000 ) ) ;
#160 = CARTESIAN_POINT ( 'NONE',  ( 3.000000000000000000, 1.836970198721029589E-15, -15.00000000000000000 ) ) ;
#161 = ORIENTED_EDGE ( 'NONE', *, *, #64, .F. ) ;
#162 = APPROVAL_ROLE ( '' ) ;
#163 = DIRECTION ( 'NONE',  ( -1.000000000000000000, -0.000000000000000000, -0.000000000000000000 ) ) ;
#164 = CALENDAR_DATE ( 2020, 23, 12 ) ;
#165 = CARTESIAN_POINT ( 'NONE',  ( 3.000000000000000000, 0.000000000000000000, 0.000000000000000000 ) ) ;
#166 = PRODUCT_DEFINITION_SHAPE ( 'NONE', 'NONE',  #118 ) ;
#167 = APPROVAL_ROLE ( '' ) ;
#168 = CLOSED_SHELL ( 'NONE', ( #78, #74, #98, #116 ) ) ;
#169 = ADVANCED_BREP_SHAPE_REPRESENTATION ( 'Q-QZWP-R4-25.4-266-M', ( #82, #152 ), #173 ) ;
#170 = EDGE_CURVE ( 'NONE', #85, #107, #145, .T. ) ;
#171 = AXIS2_PLACEMENT_3D ( 'NONE', #165, #35, #18 ) ;
#172 = FACE_OUTER_BOUND ( 'NONE', #155, .T. ) ;
#173 =( GEOMETRIC_REPRESENTATION_CONTEXT ( 3 ) GLOBAL_UNCERTAINTY_ASSIGNED_CONTEXT ( ( #113 ) ) GLOBAL_UNIT_ASSIGNED_CONTEXT ( ( #122, #156, #143 ) ) REPRESENTATION_CONTEXT ( 'NONE', 'WORKASPACE' ) );
#174 = CARTESIAN_POINT ( 'NONE',  ( 3.000000000000000000, 0.000000000000000000, 15.00000000000000000 ) ) ;
#175 = DIRECTION ( 'NONE',  ( -1.000000000000000000, -0.000000000000000000, -0.000000000000000000 ) ) ;
ENDSEC;
END-ISO-10303-21;
